borndirty

Go Back   Dirty Forums > underworld.

Reply
 
Thread Tools Display Modes
  #1  
Old 07-08-2005, 05:34 PM
Caprice Caprice is offline
pants
 
Join Date: Jun 2005
Posts: 419
Default Tongue Tab (chorus only) help could be nice

-------------------------------------------------------------------------------
Tongue - Underworld
-------------------------------------------------------------------------------

Tuning: Standard, CAPO 5th FRET!

e|---------------------------------------------------------------------------|
B|---3----2----0----0h2----2---0------------------------------------------|
G|---2----2----0----0h2----2---0------------------------------------------|
D|---------------------------------------------------------------------------|
A|---------------------------------------------------------------------------|
E|---------------------------------------------------------------------------|

If anyone would like to add to this, the solo (wink), please feel free
this is guitar tablature,
h = hammer on

Last edited by Caprice; 07-10-2005 at 01:53 PM.
Reply With Quote
  #2  
Old 07-05-2018, 06:43 AM
mindtpi mindtpi is offline
river
 
Join Date: Jul 2018
Posts: 1
Default Re: Tongue Tab (chorus only) help could be nice

I know this is years old and dead, but i found this looking for the tab so someone else might find it useful (and I can't find it anywhere else) and it's incredibly easy to play. This is more or less how I think it goes

Tuning: Standard, NO capo (you need the open high e) and strum down with thumb

e|---x----x----x------x-------x----------------------------------------------|
B|---8----7----5----5h7-----5----------------------------------------------|
G|---7----7----5----5h7-----5---------------------------------------------|
D|---5----5----5----x--------5---------------------------------------------|
A| --x----x----0-----x--------0---------------------------------------------|
E|---x----x----x------x-------x----------------------------------------------|

Other bit is finger picking these strings - note D is open. This isn't the pattern, just the notes, listen to the record and pick your own pattern

e|--------5-----5p0--------5-----8-----7----0------------------------------------|
B|-----6-----6-----------6-------------------------------------------------------|
G|---5-----5-----------5----------------------------------------------------------|
D|-0------0-----------0------------------------------------------------------|
A| Don't play A string
E| Don't play E string

Ending on the open high e gives you time to get back the first pattern. It's not exactly right but it's close enough for me.

Last edited by mindtpi; 07-15-2018 at 06:29 AM. Reason: fixed tab
Reply With Quote
Reply

Thread Tools
Display Modes

Posting Rules
You may not post new threads
You may not post replies
You may not post attachments
You may not edit your posts

BB code is On
Smilies are On
[IMG] code is On
HTML code is Off

Forum Jump


All times are GMT -7. The time now is 10:31 AM.


Powered by vBulletin®
Copyright ©2000 - 2018, vBulletin Solutions, Inc.